ISO-10303-21;
HEADER;
FILE_DESCRIPTION (( 'STEP AP203' ),
    '1' );
FILE_NAME ('BK7-LPBSC-20-860.STEP',
    '2020-12-22T03:13:41',
    ( '' ),
    ( '' ),
    'SwSTEP 2.0',
    'SolidWorks 2020',
    '' );
FILE_SCHEMA (( 'CONFIG_CONTROL_DESIGN' ));
ENDSEC;

DATA;
#1 = LINE ( 'NONE', #45, #236 ) ;
#2 = EDGE_CURVE ( 'NONE', #247, #195, #199, .T. ) ;
#3 = PLANE ( 'NONE',  #282 ) ;
#4 = EDGE_CURVE ( 'NONE', #313, #254, #72, .T. ) ;
#5 = DIRECTION ( 'NONE',  ( 2.220446049250313081E-16, 1.000000000000000000, 0.000000000000000000 ) ) ;
#6 = CARTESIAN_POINT ( 'NONE',  ( 10.00000000000000178, 9.999999999999998224, -10.00000000000000000 ) ) ;
#7 = CARTESIAN_POINT ( 'NONE',  ( -9.999999999999998224, -10.00000000000000000, 10.00000000000000000 ) ) ;
#8 = LINE ( 'NONE', #102, #70 ) ;
#9 = VECTOR ( 'NONE', #173, 1000.000000000000000 ) ;
#10 = EDGE_CURVE ( 'NONE', #274, #196, #278, .T. ) ;
#11 = LINE ( 'NONE', #37, #299 ) ;
#12 = COORDINATED_UNIVERSAL_TIME_OFFSET ( 8, 0, .AHEAD. ) ;
#13 = ADVANCED_BREP_SHAPE_REPRESENTATION ( 'BK7-LPBSC-20-860', ( #63, #67, #248 ), #34 ) ;
#14 = VECTOR ( 'NONE', #147, 1000.000000000000000 ) ;
#15 = EDGE_CURVE ( 'NONE', #95, #116, #1, .T. ) ;
#16 = LINE ( 'NONE', #114, #129 ) ;
#17 = APPROVAL_STATUS ( 'not_yet_approved' ) ;
#18 = VECTOR ( 'NONE', #68, 1000.000000000000000 ) ;
#19 = VERTEX_POINT ( 'NONE', #90 ) ;
#20 = VECTOR ( 'NONE', #283, 1000.000000000000000 ) ;
#21 = EDGE_CURVE ( 'NONE', #143, #89, #203, .T. ) ;
#22 = CARTESIAN_POINT ( 'NONE',  ( 10.00000000000000178, 9.999999999999998224, -10.00000000000000000 ) ) ;
#23 = APPROVAL ( #17, 'UNSPECIFIED' ) ;
#24 = DIRECTION ( 'NONE',  ( 2.220446049250313081E-16, 1.000000000000000000, 0.000000000000000000 ) ) ;
#25 = CLOSED_SHELL ( 'NONE', ( #239, #148, #312, #110, #78 ) ) ;
#26 = DIRECTION ( 'NONE',  ( 0.000000000000000000, -0.000000000000000000, 1.000000000000000000 ) ) ;
#27 = LOCAL_TIME ( 11, 13, 41.00000000000000000, #315 ) ;
#28 = CARTESIAN_POINT ( 'NONE',  ( 10.00000000000000178, -10.00000000000000000, 10.00000000000000000 ) ) ;
#29 = DIRECTION ( 'NONE',  ( -0.000000000000000000, 0.000000000000000000, -1.000000000000000000 ) ) ;
#30 = PLANE ( 'NONE',  #122 ) ;
#31 = DIRECTION ( 'NONE',  ( 0.000000000000000000, 0.000000000000000000, 1.000000000000000000 ) ) ;
#32 = CARTESIAN_POINT ( 'NONE',  ( 10.00000000000000000, 10.00000000000000000, 10.00000000000000000 ) ) ;
#33 = DIRECTION ( 'NONE',  ( -0.000000000000000000, 0.000000000000000000, 1.000000000000000000 ) ) ;
#34 =( GEOMETRIC_REPRESENTATION_CONTEXT ( 3 ) GLOBAL_UNCERTAINTY_ASSIGNED_CONTEXT ( ( #100 ) ) GLOBAL_UNIT_ASSIGNED_CONTEXT ( ( #269, #311, #84 ) ) REPRESENTATION_CONTEXT ( 'NONE', 'WORKASPACE' ) );
#35 = EDGE_CURVE ( 'NONE', #289, #89, #16, .T. ) ;
#36 = APPLICATION_PROTOCOL_DEFINITION ( 'international standard', 'config_control_design', 1994, #288 ) ;
#37 = CARTESIAN_POINT ( 'NONE',  ( 10.00000000000000178, 9.999999999999998224, 10.00000000000000000 ) ) ;
#38 = APPROVAL_PERSON_ORGANIZATION ( #273, #23, #88 ) ;
#39 = ORIENTED_EDGE ( 'NONE', *, *, #157, .T. ) ;
#40 = APPROVAL ( #216, 'UNSPECIFIED' ) ;
#41 = DATE_AND_TIME ( #132, #188 ) ;
#42 = ORIENTED_EDGE ( 'NONE', *, *, #182, .T. ) ;
#43 = ORIENTED_EDGE ( 'NONE', *, *, #191, .T. ) ;
#44 = CC_DESIGN_APPROVAL ( #202, ( #197 ) ) ;
#45 = CARTESIAN_POINT ( 'NONE',  ( 10.00000000000000178, 9.999999999999998224, 10.00000000000000000 ) ) ;
#46 = CALENDAR_DATE ( 2020, 22, 12 ) ;
#47 = ORIENTED_EDGE ( 'NONE', *, *, #163, .T. ) ;
#48 = DIRECTION ( 'NONE',  ( 0.000000000000000000, 0.000000000000000000, 1.000000000000000000 ) ) ;
#49 = DIRECTION ( 'NONE',  ( -0.7071067811865475727, -0.7071067811865474617, 0.000000000000000000 ) ) ;
#50 = VECTOR ( 'NONE', #49, 1000.000000000000000 ) ;
#51 = DIRECTION ( 'NONE',  ( 2.220446049250313081E-16, 1.000000000000000000, 0.000000000000000000 ) ) ;
#52 = FACE_OUTER_BOUND ( 'NONE', #243, .T. ) ;
#53 = PLANE ( 'NONE',  #165 ) ;
#54 = CARTESIAN_POINT ( 'NONE',  ( 10.00000000000000178, 9.999999999999998224, 10.00000000000000000 ) ) ;
#55 = LINE ( 'NONE', #304, #316 ) ;
#56 = LINE ( 'NONE', #125, #14 ) ;
#57 = CARTESIAN_POINT ( 'NONE',  ( -9.999999999999998224, 10.00000000000000355, -10.00000000000000000 ) ) ;
#58 = CARTESIAN_POINT ( 'NONE',  ( 10.00000000000000178, -10.00000000000000000, -10.00000000000000000 ) ) ;
#59 = CC_DESIGN_PERSON_AND_ORGANIZATION_ASSIGNMENT ( #135, #193, ( #113 ) ) ;
#60 = DIRECTION ( 'NONE',  ( -2.220446049250313081E-16, -1.000000000000000000, 0.000000000000000000 ) ) ;
#61 = ADVANCED_FACE ( 'NONE', ( #261 ), #303, .T. ) ;
#62 = APPLICATION_CONTEXT ( 'configuration controlled 3d designs of mechanical parts and assemblies' ) ;
#63 = MANIFOLD_SOLID_BREP ( 'Í¹Ì¨-À', #138 ) ;
#64 = SHAPE_DEFINITION_REPRESENTATION ( #171, #13 ) ;
#65 = ORIENTED_EDGE ( 'NONE', *, *, #15, .T. ) ;
#66 = CALENDAR_DATE ( 2020, 22, 12 ) ;
#67 = MANIFOLD_SOLID_BREP ( '¾µÏ', #25 ) ;
#68 = DIRECTION ( 'NONE',  ( -0.000000000000000000, -0.000000000000000000, -1.000000000000000000 ) ) ;
#69 = PERSON_AND_ORGANIZATION_ROLE ( 'design_supplier' ) ;
#70 = VECTOR ( 'NONE', #181, 1000.000000000000000 ) ;
#71 = CC_DESIGN_PERSON_AND_ORGANIZATION_ASSIGNMENT ( #167, #169, ( #131 ) ) ;
#72 = LINE ( 'NONE', #140, #9 ) ;
#73 = DIRECTION ( 'NONE',  ( -1.000000000000000000, 0.000000000000000000, 0.000000000000000000 ) ) ;
#74 = CARTESIAN_POINT ( 'NONE',  ( 10.00000000000000000, 10.00000000000000000, -10.00000000000000000 ) ) ;
#75 = DIRECTION ( 'NONE',  ( -0.000000000000000000, 0.000000000000000000, 1.000000000000000000 ) ) ;
#76 = DIRECTION ( 'NONE',  ( 2.220446049250313081E-16, 1.000000000000000000, 0.000000000000000000 ) ) ;
#77 = DIRECTION ( 'NONE',  ( 1.000000000000000000, 0.000000000000000000, 0.000000000000000000 ) ) ;
#78 = ADVANCED_FACE ( 'NONE', ( #52 ), #101, .F. ) ;
#79 = DIRECTION ( 'NONE',  ( 1.000000000000000000, -2.220446049250313081E-16, 0.000000000000000000 ) ) ;
#80 = AXIS2_PLACEMENT_3D ( 'NONE', #206, #149, #51 ) ;
#81 = LINE ( 'NONE', #152, #145 ) ;
#82 = CARTESIAN_POINT ( 'NONE',  ( 10.00000000000000000, 10.00000000000000000, 10.00000000000000000 ) ) ;
#83 = ORIENTED_EDGE ( 'NONE', *, *, #2, .T. ) ;
#84 =( NAMED_UNIT ( * ) SI_UNIT ( $, .STERADIAN. ) SOLID_ANGLE_UNIT ( ) );
#85 = APPROVAL_DATE_TIME ( #218, #40 ) ;
#86 = LOCAL_TIME ( 11, 13, 41.00000000000000000, #12 ) ;
#87 = ORIENTED_EDGE ( 'NONE', *, *, #191, .F. ) ;
#88 = APPROVAL_ROLE ( '' ) ;
#89 = VERTEX_POINT ( 'NONE', #144 ) ;
#90 = CARTESIAN_POINT ( 'NONE',  ( 10.00000000000000000, 10.00000000000000000, 10.00000000000000000 ) ) ;
#91 = PERSON ( 'UNSPECIFIED', 'UNSPECIFIED', 'UNSPECIFIED', ('UNSPECIFIED'), ('UNSPECIFIED'), ('UNSPECIFIED') ) ;
#92 = ORIENTED_EDGE ( 'NONE', *, *, #182, .F. ) ;
#93 = PRODUCT_RELATED_PRODUCT_CATEGORY ( 'detail', '', ( #284 ) ) ;
#94 = SECURITY_CLASSIFICATION_LEVEL ( 'unclassified' ) ;
#95 = VERTEX_POINT ( 'NONE', #126 ) ;
#96 = EDGE_CURVE ( 'NONE', #116, #247, #259, .T. ) ;
#97 = DIRECTION ( 'NONE',  ( -0.7071067811865475727, -0.7071067811865474617, 0.000000000000000000 ) ) ;
#98 = APPROVAL_PERSON_ORGANIZATION ( #155, #40, #246 ) ;
#99 = CC_DESIGN_PERSON_AND_ORGANIZATION_ASSIGNMENT ( #115, #275, ( #197 ) ) ;
#100 = UNCERTAINTY_MEASURE_WITH_UNIT (LENGTH_MEASURE( 1.000000000000000082E-05 ), #269, 'distance_accuracy_value', 'NONE');
#101 = PLANE ( 'NONE',  #80 ) ;
#102 = CARTESIAN_POINT ( 'NONE',  ( 10.00000000000000178, 9.999999999999998224, -10.00000000000000000 ) ) ;
#103 = CARTESIAN_POINT ( 'NONE',  ( -10.00000000000000178, -9.999999999999996447, -10.00000000000000000 ) ) ;
#104 = APPROVAL_STATUS ( 'not_yet_approved' ) ;
#105 = DIRECTION ( 'NONE',  ( -0.000000000000000000, -0.000000000000000000, -1.000000000000000000 ) ) ;
#106 = ADVANCED_FACE ( 'NONE', ( #208 ), #30, .F. ) ;
#107 = PERSON_AND_ORGANIZATION ( #91, #124 ) ;
#108 = CALENDAR_DATE ( 2020, 22, 12 ) ;
#109 = VECTOR ( 'NONE', #240, 1000.000000000000000 ) ;
#110 = ADVANCED_FACE ( 'NONE', ( #123 ), #3, .T. ) ;
#111 = LOCAL_TIME ( 11, 13, 41.00000000000000000, #266 ) ;
#112 = ORIENTED_EDGE ( 'NONE', *, *, #21, .F. ) ;
#113 = PRODUCT_DEFINITION ( 'UNKNOWN', '', #197, #302 ) ;
#114 = CARTESIAN_POINT ( 'NONE',  ( -10.00000000000000178, -9.999999999999996447, 10.00000000000000000 ) ) ;
#115 = PERSON_AND_ORGANIZATION ( #91, #124 ) ;
#116 = VERTEX_POINT ( 'NONE', #212 ) ;
#117 = APPROVAL_DATE_TIME ( #172, #23 ) ;
#118 = ORIENTED_EDGE ( 'NONE', *, *, #178, .F. ) ;
#119 = EDGE_LOOP ( 'NONE', ( #65, #229, #43 ) ) ;
#120 = EDGE_CURVE ( 'NONE', #254, #143, #55, .T. ) ;
#121 = ORIENTED_EDGE ( 'NONE', *, *, #15, .F. ) ;
#122 = AXIS2_PLACEMENT_3D ( 'NONE', #234, #305, #26 ) ;
#123 = FACE_OUTER_BOUND ( 'NONE', #320, .T. ) ;
#124 = ORGANIZATION ( 'UNSPECIFIED', 'UNSPECIFIED', '' ) ;
#125 = CARTESIAN_POINT ( 'NONE',  ( -9.999999999999998224, -10.00000000000000000, -10.00000000000000000 ) ) ;
#126 = CARTESIAN_POINT ( 'NONE',  ( 10.00000000000000178, 9.999999999999998224, 10.00000000000000000 ) ) ;
#127 = ADVANCED_FACE ( 'NONE', ( #242 ), #215, .F. ) ;
#128 = DIRECTION ( 'NONE',  ( -0.7071067811865474617, 0.7071067811865475727, 0.000000000000000000 ) ) ;
#129 = VECTOR ( 'NONE', #137, 1000.000000000000000 ) ;
#130 = DIRECTION ( 'NONE',  ( -0.7071067811865475727, -0.7071067811865474617, 0.000000000000000000 ) ) ;
#131 = SECURITY_CLASSIFICATION ( '', '', #94 ) ;
#132 = CALENDAR_DATE ( 2020, 22, 12 ) ;
#133 = FACE_OUTER_BOUND ( 'NONE', #200, .T. ) ;
#134 = PLANE ( 'NONE',  #141 ) ;
#135 = PERSON_AND_ORGANIZATION ( #91, #124 ) ;
#136 = ORIENTED_EDGE ( 'NONE', *, *, #280, .T. ) ;
#137 = DIRECTION ( 'NONE',  ( -0.000000000000000000, 0.000000000000000000, -1.000000000000000000 ) ) ;
#138 = CLOSED_SHELL ( 'NONE', ( #291, #106, #270, #61, #127 ) ) ;
#139 = CALENDAR_DATE ( 2020, 22, 12 ) ;
#140 = CARTESIAN_POINT ( 'NONE',  ( -9.999999999999998224, 10.00000000000000355, 10.00000000000000000 ) ) ;
#141 = AXIS2_PLACEMENT_3D ( 'NONE', #82, #60, #265 ) ;
#142 = FACE_OUTER_BOUND ( 'NONE', #225, .T. ) ;
#143 = VERTEX_POINT ( 'NONE', #146 ) ;
#144 = CARTESIAN_POINT ( 'NONE',  ( -10.00000000000000178, -9.999999999999996447, -10.00000000000000000 ) ) ;
#145 = VECTOR ( 'NONE', #130, 1000.000000000000000 ) ;
#146 = CARTESIAN_POINT ( 'NONE',  ( 10.00000000000000000, 10.00000000000000000, -10.00000000000000000 ) ) ;
#147 = DIRECTION ( 'NONE',  ( 1.000000000000000000, 0.000000000000000000, 0.000000000000000000 ) ) ;
#148 = ADVANCED_FACE ( 'NONE', ( #213 ), #306, .F. ) ;
#149 = DIRECTION ( 'NONE',  ( 0.000000000000000000, -0.000000000000000000, 1.000000000000000000 ) ) ;
#150 = CARTESIAN_POINT ( 'NONE',  ( 10.00000000000000000, 10.00000000000000000, 10.00000000000000000 ) ) ;
#151 = LINE ( 'NONE', #32, #226 ) ;
#152 = CARTESIAN_POINT ( 'NONE',  ( 10.00000000000000000, 10.00000000000000000, 10.00000000000000000 ) ) ;
#153 = CARTESIAN_POINT ( 'NONE',  ( 0.000000000000000000, 0.000000000000000000, -10.00000000000000000 ) ) ;
#154 = APPROVAL_PERSON_ORGANIZATION ( #285, #202, #186 ) ;
#155 = PERSON_AND_ORGANIZATION ( #91, #124 ) ;
#156 = DIRECTION ( 'NONE',  ( -0.000000000000000000, -0.000000000000000000, -1.000000000000000000 ) ) ;
#157 = EDGE_CURVE ( 'NONE', #195, #274, #8, .T. ) ;
#158 = EDGE_LOOP ( 'NONE', ( #276, #287, #194, #166 ) ) ;
#159 = CARTESIAN_POINT ( 'NONE',  ( 0.000000000000000000, 0.000000000000000000, 0.000000000000000000 ) ) ;
#160 = MECHANICAL_CONTEXT ( 'NONE', #288, 'mechanical' ) ;
#161 = ORIENTED_EDGE ( 'NONE', *, *, #286, .F. ) ;
#162 = AXIS2_PLACEMENT_3D ( 'NONE', #153, #33, #77 ) ;
#163 = EDGE_CURVE ( 'NONE', #313, #19, #185, .T. ) ;
#164 = CC_DESIGN_SECURITY_CLASSIFICATION ( #131, ( #197 ) ) ;
#165 = AXIS2_PLACEMENT_3D ( 'NONE', #150, #128, #260 ) ;
#166 = ORIENTED_EDGE ( 'NONE', *, *, #4, .T. ) ;
#167 = PERSON_AND_ORGANIZATION ( #91, #124 ) ;
#168 = ORIENTED_EDGE ( 'NONE', *, *, #157, .F. ) ;
#169 = PERSON_AND_ORGANIZATION_ROLE ( 'classification_officer' ) ;
#170 = ORIENTED_EDGE ( 'NONE', *, *, #286, .T. ) ;
#171 = PRODUCT_DEFINITION_SHAPE ( 'NONE', 'NONE',  #113 ) ;
#172 = DATE_AND_TIME ( #46, #27 ) ;
#173 = DIRECTION ( 'NONE',  ( -0.000000000000000000, 0.000000000000000000, -1.000000000000000000 ) ) ;
#174 = ORIENTED_EDGE ( 'NONE', *, *, #230, .T. ) ;
#175 = FACE_OUTER_BOUND ( 'NONE', #223, .T. ) ;
#176 = DIRECTION ( 'NONE',  ( 1.000000000000000000, 0.000000000000000000, 0.000000000000000000 ) ) ;
#177 = CARTESIAN_POINT ( 'NONE',  ( 10.00000000000000000, 10.00000000000000000, 10.00000000000000000 ) ) ;
#178 = EDGE_CURVE ( 'NONE', #95, #274, #11, .T. ) ;
#179 = AXIS2_PLACEMENT_3D ( 'NONE', #238, #183, #31 ) ;
#180 = PLANE ( 'NONE',  #258 ) ;
#181 = DIRECTION ( 'NONE',  ( -0.000000000000000000, 1.000000000000000000, -0.000000000000000000 ) ) ;
#182 = EDGE_CURVE ( 'NONE', #116, #196, #235, .T. ) ;
#183 = DIRECTION ( 'NONE',  ( 1.000000000000000000, -2.220446049250313081E-16, 0.000000000000000000 ) ) ;
#184 = LINE ( 'NONE', #103, #204 ) ;
#185 = LINE ( 'NONE', #177, #109 ) ;
#186 = APPROVAL_ROLE ( '' ) ;
#187 = CARTESIAN_POINT ( 'NONE',  ( -10.00000000000000178, -9.999999999999996447, 10.00000000000000000 ) ) ;
#188 = LOCAL_TIME ( 11, 13, 41.00000000000000000, #290 ) ;
#189 = ORIENTED_EDGE ( 'NONE', *, *, #178, .T. ) ;
#190 = PERSON_AND_ORGANIZATION_ROLE ( 'design_owner' ) ;
#191 = EDGE_CURVE ( 'NONE', #247, #95, #281, .T. ) ;
#192 = VECTOR ( 'NONE', #317, 1000.000000000000000 ) ;
#193 = PERSON_AND_ORGANIZATION_ROLE ( 'creator' ) ;
#194 = ORIENTED_EDGE ( 'NONE', *, *, #263, .T. ) ;
#195 = VERTEX_POINT ( 'NONE', #58 ) ;
#196 = VERTEX_POINT ( 'NONE', #262 ) ;
#197 = PRODUCT_DEFINITION_FORMATION_WITH_SPECIFIED_SOURCE ( 'ANY', '', #284, .NOT_KNOWN. ) ;
#198 = ORIENTED_EDGE ( 'NONE', *, *, #35, .T. ) ;
#199 = LINE ( 'NONE', #296, #18 ) ;
#200 = EDGE_LOOP ( 'NONE', ( #112, #272, #174, #198 ) ) ;
#201 = VECTOR ( 'NONE', #156, 1000.000000000000000 ) ;
#202 = APPROVAL ( #104, 'UNSPECIFIED' ) ;
#203 = LINE ( 'NONE', #74, #50 ) ;
#204 = VECTOR ( 'NONE', #24, 1000.000000000000000 ) ;
#205 = CARTESIAN_POINT ( 'NONE',  ( -10.00000000000000178, -9.999999999999996447, 10.00000000000000000 ) ) ;
#206 = CARTESIAN_POINT ( 'NONE',  ( 0.000000000000000000, 0.000000000000000000, -10.00000000000000000 ) ) ;
#207 = CARTESIAN_POINT ( 'NONE',  ( 0.000000000000000000, 0.000000000000000000, 10.00000000000000000 ) ) ;
#208 = FACE_OUTER_BOUND ( 'NONE', #255, .T. ) ;
#209 = FACE_OUTER_BOUND ( 'NONE', #314, .T. ) ;
#210 = CC_DESIGN_DATE_AND_TIME_ASSIGNMENT ( #41, #241, ( #113 ) ) ;
#211 = CARTESIAN_POINT ( 'NONE',  ( 0.000000000000000000, 0.000000000000000000, 10.00000000000000000 ) ) ;
#212 = CARTESIAN_POINT ( 'NONE',  ( -9.999999999999998224, -10.00000000000000000, 10.00000000000000000 ) ) ;
#213 = FACE_OUTER_BOUND ( 'NONE', #158, .T. ) ;
#214 = DIRECTION ( 'NONE',  ( 1.000000000000000000, 0.000000000000000000, 0.000000000000000000 ) ) ;
#215 = PLANE ( 'NONE',  #162 ) ;
#216 = APPROVAL_STATUS ( 'not_yet_approved' ) ;
#217 = CARTESIAN_POINT ( 'NONE',  ( -9.999999999999998224, 10.00000000000000355, 10.00000000000000000 ) ) ;
#218 = DATE_AND_TIME ( #108, #111 ) ;
#219 = AXIS2_PLACEMENT_3D ( 'NONE', #211, #75, #232 ) ;
#220 = AXIS2_PLACEMENT_3D ( 'NONE', #256, #307, #257 ) ;
#221 = DATE_AND_TIME ( #139, #231 ) ;
#222 = ORIENTED_EDGE ( 'NONE', *, *, #21, .T. ) ;
#223 = EDGE_LOOP ( 'NONE', ( #228, #298, #47, #136 ) ) ;
#224 = DATE_AND_TIME ( #66, #86 ) ;
#225 = EDGE_LOOP ( 'NONE', ( #251, #92, #121, #189 ) ) ;
#226 = VECTOR ( 'NONE', #29, 1000.000000000000000 ) ;
#227 = ORIENTED_EDGE ( 'NONE', *, *, #10, .F. ) ;
#228 = ORIENTED_EDGE ( 'NONE', *, *, #120, .F. ) ;
#229 = ORIENTED_EDGE ( 'NONE', *, *, #96, .T. ) ;
#230 = EDGE_CURVE ( 'NONE', #19, #289, #81, .T. ) ;
#231 = LOCAL_TIME ( 11, 13, 41.00000000000000000, #252 ) ;
#232 = DIRECTION ( 'NONE',  ( 1.000000000000000000, 0.000000000000000000, 0.000000000000000000 ) ) ;
#233 = LINE ( 'NONE', #187, #253 ) ;
#234 = CARTESIAN_POINT ( 'NONE',  ( -9.999999999999998224, -10.00000000000000000, 10.00000000000000000 ) ) ;
#235 = LINE ( 'NONE', #301, #201 ) ;
#236 = VECTOR ( 'NONE', #97, 1000.000000000000000 ) ;
#237 = PLANE ( 'NONE',  #220 ) ;
#238 = CARTESIAN_POINT ( 'NONE',  ( -10.00000000000000178, -9.999999999999996447, 10.00000000000000000 ) ) ;
#239 = ADVANCED_FACE ( 'NONE', ( #133 ), #53, .F. ) ;
#240 = DIRECTION ( 'NONE',  ( 1.000000000000000000, -2.220446049250313081E-16, 0.000000000000000000 ) ) ;
#241 = DATE_TIME_ROLE ( 'creation_date' ) ;
#242 = FACE_OUTER_BOUND ( 'NONE', #279, .T. ) ;
#243 = EDGE_LOOP ( 'NONE', ( #222, #249, #292 ) ) ;
#244 = DIRECTION ( 'NONE',  ( 0.000000000000000000, 0.000000000000000000, 1.000000000000000000 ) ) ;
#245 = ORIENTED_EDGE ( 'NONE', *, *, #263, .F. ) ;
#246 = APPROVAL_ROLE ( '' ) ;
#247 = VERTEX_POINT ( 'NONE', #28 ) ;
#248 = AXIS2_PLACEMENT_3D ( 'NONE', #159, #244, #214 ) ;
#249 = ORIENTED_EDGE ( 'NONE', *, *, #294, .T. ) ;
#250 = ORIENTED_EDGE ( 'NONE', *, *, #96, .F. ) ;
#251 = ORIENTED_EDGE ( 'NONE', *, *, #10, .T. ) ;
#252 = COORDINATED_UNIVERSAL_TIME_OFFSET ( 8, 0, .AHEAD. ) ;
#253 = VECTOR ( 'NONE', #5, 1000.000000000000000 ) ;
#254 = VERTEX_POINT ( 'NONE', #57 ) ;
#255 = EDGE_LOOP ( 'NONE', ( #170, #321, #250, #42 ) ) ;
#256 = CARTESIAN_POINT ( 'NONE',  ( 10.00000000000000178, 9.999999999999998224, 10.00000000000000000 ) ) ;
#257 = DIRECTION ( 'NONE',  ( 0.7071067811865475727, 0.7071067811865474617, 0.000000000000000000 ) ) ;
#258 = AXIS2_PLACEMENT_3D ( 'NONE', #54, #73, #48 ) ;
#259 = LINE ( 'NONE', #7, #271 ) ;
#260 = DIRECTION ( 'NONE',  ( 0.7071067811865475727, 0.7071067811865474617, 0.000000000000000000 ) ) ;
#261 = FACE_OUTER_BOUND ( 'NONE', #119, .T. ) ;
#262 = CARTESIAN_POINT ( 'NONE',  ( -9.999999999999998224, -10.00000000000000000, -10.00000000000000000 ) ) ;
#263 = EDGE_CURVE ( 'NONE', #289, #313, #233, .T. ) ;
#264 = DIRECTION ( 'NONE',  ( 0.000000000000000000, -0.000000000000000000, 1.000000000000000000 ) ) ;
#265 = DIRECTION ( 'NONE',  ( 0.000000000000000000, 0.000000000000000000, 1.000000000000000000 ) ) ;
#266 = COORDINATED_UNIVERSAL_TIME_OFFSET ( 8, 0, .AHEAD. ) ;
#267 = CC_DESIGN_PERSON_AND_ORGANIZATION_ASSIGNMENT ( #295, #69, ( #197 ) ) ;
#268 = ORIENTED_EDGE ( 'NONE', *, *, #163, .F. ) ;
#269 =( LENGTH_UNIT ( ) NAMED_UNIT ( * ) SI_UNIT ( .MILLI., .METRE. ) );
#270 = ADVANCED_FACE ( 'NONE', ( #209 ), #180, .F. ) ;
#271 = VECTOR ( 'NONE', #176, 1000.000000000000000 ) ;
#272 = ORIENTED_EDGE ( 'NONE', *, *, #280, .F. ) ;
#273 = PERSON_AND_ORGANIZATION ( #91, #124 ) ;
#274 = VERTEX_POINT ( 'NONE', #6 ) ;
#275 = PERSON_AND_ORGANIZATION_ROLE ( 'creator' ) ;
#276 = ORIENTED_EDGE ( 'NONE', *, *, #294, .F. ) ;
#277 = CC_DESIGN_DATE_AND_TIME_ASSIGNMENT ( #221, #319, ( #131 ) ) ;
#278 = LINE ( 'NONE', #22, #192 ) ;
#279 = EDGE_LOOP ( 'NONE', ( #227, #168, #161 ) ) ;
#280 = EDGE_CURVE ( 'NONE', #19, #143, #151, .T. ) ;
#281 = LINE ( 'NONE', #309, #20 ) ;
#282 = AXIS2_PLACEMENT_3D ( 'NONE', #207, #264, #76 ) ;
#283 = DIRECTION ( 'NONE',  ( -0.000000000000000000, 1.000000000000000000, -0.000000000000000000 ) ) ;
#284 = PRODUCT ( 'BK7-LPBSC-20-860', 'BK7-LPBSC-20-860', '', ( #160 ) ) ;
#285 = PERSON_AND_ORGANIZATION ( #91, #124 ) ;
#286 = EDGE_CURVE ( 'NONE', #196, #195, #56, .T. ) ;
#287 = ORIENTED_EDGE ( 'NONE', *, *, #35, .F. ) ;
#288 = APPLICATION_CONTEXT ( 'configuration controlled 3d designs of mechanical parts and assemblies' ) ;
#289 = VERTEX_POINT ( 'NONE', #205 ) ;
#290 = COORDINATED_UNIVERSAL_TIME_OFFSET ( 8, 0, .AHEAD. ) ;
#291 = ADVANCED_FACE ( 'NONE', ( #142 ), #237, .F. ) ;
#292 = ORIENTED_EDGE ( 'NONE', *, *, #120, .T. ) ;
#293 = ORIENTED_EDGE ( 'NONE', *, *, #230, .F. ) ;
#294 = EDGE_CURVE ( 'NONE', #89, #254, #184, .T. ) ;
#295 = PERSON_AND_ORGANIZATION ( #91, #124 ) ;
#296 = CARTESIAN_POINT ( 'NONE',  ( 10.00000000000000178, -10.00000000000000000, 10.00000000000000000 ) ) ;
#297 = APPROVAL_DATE_TIME ( #224, #202 ) ;
#298 = ORIENTED_EDGE ( 'NONE', *, *, #4, .F. ) ;
#299 = VECTOR ( 'NONE', #105, 1000.000000000000000 ) ;
#300 = CC_DESIGN_APPROVAL ( #40, ( #113 ) ) ;
#301 = CARTESIAN_POINT ( 'NONE',  ( -9.999999999999998224, -10.00000000000000000, 10.00000000000000000 ) ) ;
#302 = DESIGN_CONTEXT ( 'detailed design', #62, 'design' ) ;
#303 = PLANE ( 'NONE',  #219 ) ;
#304 = CARTESIAN_POINT ( 'NONE',  ( 10.00000000000000000, 10.00000000000000000, -10.00000000000000000 ) ) ;
#305 = DIRECTION ( 'NONE',  ( 0.000000000000000000, 1.000000000000000000, 0.000000000000000000 ) ) ;
#306 = PLANE ( 'NONE',  #179 ) ;
#307 = DIRECTION ( 'NONE',  ( 0.7071067811865474617, -0.7071067811865475727, 0.000000000000000000 ) ) ;
#308 = APPLICATION_PROTOCOL_DEFINITION ( 'international standard', 'config_control_design', 1994, #62 ) ;
#309 = CARTESIAN_POINT ( 'NONE',  ( 10.00000000000000178, 9.999999999999998224, 10.00000000000000000 ) ) ;
#310 = CC_DESIGN_APPROVAL ( #23, ( #131 ) ) ;
#311 =( NAMED_UNIT ( * ) PLANE_ANGLE_UNIT ( ) SI_UNIT ( $, .RADIAN. ) );
#312 = ADVANCED_FACE ( 'NONE', ( #175 ), #134, .F. ) ;
#313 = VERTEX_POINT ( 'NONE', #217 ) ;
#314 = EDGE_LOOP ( 'NONE', ( #39, #118, #87, #83 ) ) ;
#315 = COORDINATED_UNIVERSAL_TIME_OFFSET ( 8, 0, .AHEAD. ) ;
#316 = VECTOR ( 'NONE', #79, 1000.000000000000000 ) ;
#317 = DIRECTION ( 'NONE',  ( -0.7071067811865475727, -0.7071067811865474617, 0.000000000000000000 ) ) ;
#318 = CC_DESIGN_PERSON_AND_ORGANIZATION_ASSIGNMENT ( #107, #190, ( #284 ) ) ;
#319 = DATE_TIME_ROLE ( 'classification_date' ) ;
#320 = EDGE_LOOP ( 'NONE', ( #293, #268, #245 ) ) ;
#321 = ORIENTED_EDGE ( 'NONE', *, *, #2, .F. ) ;
ENDSEC;
END-ISO-10303-21;
